Mettalica-Mama said

16. října 2009 v 19:47 |  Akordy a noty ..
Dm   Dmsus4   Dmsus2   C    Am  Amsus4   G    F   Bb
e--1------3---------0------0----0-----0------3----1----1--
b--3------3---------3------1----1-----3------0----1----3--
g--2------2---------2------0----2-----2------0----2----3--
d--0------0---------0------2----2-----2------0----3----3--
a--x------x---------x------3----0-----0------2----3----1--
e--x------x---------x------x----x-----x------3----1----x--


Dm C Am

Dm
Mama she has taught me well
C Am
Told me when I was young
Dm
Son your life's an open book
C Am
Don't close it before it's done
Dm
The brightest flame burns quickest
C Am
Thats what I heard her say
Dmi
The son's heart's owed to mother
C Am
But I must find my way....


Dm C Am G
Let my heart go
Dm C Am G
Let your son grow
Dm C Am G
Mama let my heart go
Dm C Bb G Am
Mama let this heart be still.


Rebel my new last name
Wild blood in my veins
Apron strings around my neck
The mark that still remains
Left home at an early age
of what I heard was wrong (?)
I never asked forgiveness
For what is said is done....

Dm G
Never I asked of you
C F
but never I gave
Dm G
But you gave me your emptiness


C F
that I'll take to my grave
Dm G
Never I asked of you
C F
but never I gave
Dm G
But you gave me your emptiness
C F
that I'll take to my grave
Dm C Bb G Am
So let this heart be still.


Mama now I'm coming home
I'm not all you wished of me
A mother's love for her son
was spoken heavily(?)
yeah I took your love for granted
and all the things you said to me
I need your arms to welcome me
That cold stone's all I see.....



Dm C Am G
Let my heart go
Dm C Am G
Let your son grow
Dm C Am G
Mama let my heart go
Dm C Bb G Am
Mama let this heart be still.
Dm C Am Dm
Let my heart go
Dm C Am Dm
Mama let my heart go
Dm C Am Dm
You never let my heart go
Dm C Bb G Am
Mama let this heart be still.


Never I�.

Oh,and here's that riff you all love:


|--^------^-------Full------------------------|
|-15-----15---------^---15--^--15-------------|
|-14--12-14----12--14------14--14--12---------|
|-------Bend-up---Hold----Hold----------------|
|------and-down-------------------------------|
|---------------------------------------------|


 

Buď první, kdo ohodnotí tento článek.

Nový komentář

Přihlásit se
  Ještě nemáte vlastní web? Můžete si jej zdarma založit na Blog.cz.
 

Aktuální články

Reklama